ISO-10303-21;
HEADER;
FILE_DESCRIPTION (( 'STEP AP214' ),
    '1' );
FILE_NAME ('GCC-411311.STEP',
    '2020-02-15T10:10:29',
    ( 'China' ),
    ( 'Microsoft' ),
    'SwSTEP 2.0',
    'SolidWorks 2018',
    '' );
FILE_SCHEMA (( 'AUTOMOTIVE_DESIGN' ));
ENDSEC;

DATA;
#1 = CARTESIAN_POINT ( 'NONE',  ( -50.00000000000000000, 50.00000000000000000, 6.000000000000000000 ) ) ;
#2 = EDGE_LOOP ( 'NONE', ( #63, #103 ) ) ;
#3 = CARTESIAN_POINT ( 'NONE',  ( 50.00000000000000000, 6.123233995736766085E-15, 4.253961525412961464 ) ) ;
#4 = PRODUCT_DEFINITION_CONTEXT ( 'detailed design', #33, 'design' ) ;
#5 = FACE_OUTER_BOUND ( 'NONE', #85, .T. ) ;
#6 = FILL_AREA_STYLE_COLOUR ( '', #57 ) ;
#7 = CARTESIAN_POINT ( 'NONE',  ( 0.0000000000000000000, 0.0000000000000000000, 0.0000000000000000000 ) ) ;
#8 =( LENGTH_UNIT ( ) NAMED_UNIT ( * ) SI_UNIT ( .MILLI., .METRE. ) );
#9 = EDGE_CURVE ( 'NONE', #110, #115, #92, .T. ) ;
#10 = CYLINDRICAL_SURFACE ( 'NONE', #78, 50.00000000000000000 ) ;
#11 = ADVANCED_BREP_SHAPE_REPRESENTATION ( 'GCC-411311', ( #138, #65 ), #71 ) ;
#12 = PRODUCT_DEFINITION_SHAPE ( 'NONE', 'NONE',  #69 ) ;
#13 = CARTESIAN_POINT ( 'NONE',  ( 0.0000000000000000000, 0.0000000000000000000, 0.0000000000000000000 ) ) ;
#14 = DIRECTION ( 'NONE',  ( 0.0000000000000000000, 0.0000000000000000000, 1.000000000000000000 ) ) ;
#15 = EDGE_CURVE ( 'NONE', #110, #117, #133, .T. ) ;
#16 = CYLINDRICAL_SURFACE ( 'NONE', #46, 50.00000000000000000 ) ;
#17 = CARTESIAN_POINT ( 'NONE',  ( 0.0000000000000000000, 0.0000000000000000000, 0.0000000000000000000 ) ) ;
#18 = CARTESIAN_POINT ( 'NONE',  ( 0.0000000000000000000, 0.0000000000000000000, 6.000000000000000000 ) ) ;
#19 = SHAPE_DEFINITION_REPRESENTATION ( #12, #11 ) ;
#20 = STYLED_ITEM ( 'NONE', ( #100 ), #11 ) ;
#21 = DIRECTION ( 'NONE',  ( 1.000000000000000000, 0.0000000000000000000, 0.0000000000000000000 ) ) ;
#22 = SURFACE_SIDE_STYLE ('',( #76 ) ) ;
#23 = PRODUCT ( 'GCC-411311', 'GCC-411311', '', ( #83 ) ) ;
#24 = ORIENTED_EDGE ( 'NONE', *, *, #9, .T. ) ;
#25 = UNCERTAINTY_MEASURE_WITH_UNIT (LENGTH_MEASURE( 1.000000000000000082E-05 ), #134, 'distance_accuracy_value', 'NONE');
#26 = ORIENTED_EDGE ( 'NONE', *, *, #135, .T. ) ;
#27 = CARTESIAN_POINT ( 'NONE',  ( -50.00000000000000000, 0.0000000000000000000, 0.0000000000000000000 ) ) ;
#28 = CARTESIAN_POINT ( 'NONE',  ( -50.00000000000002132, 100.0000000000000000, 7.746038474587039424 ) ) ;
#29 = DIRECTION ( 'NONE',  ( 1.000000000000000000, 0.0000000000000000000, 0.0000000000000000000 ) ) ;
#30 = CARTESIAN_POINT ( 'NONE',  ( 50.00000000000000000, 6.123233995736766085E-15, 4.253961525412961464 ) ) ;
#31 = EDGE_LOOP ( 'NONE', ( #72, #70 ) ) ;
#32 =( GEOMETRIC_REPRESENTATION_CONTEXT ( 3 ) GLOBAL_UNCERTAINTY_ASSIGNED_CONTEXT ( ( #25 ) ) GLOBAL_UNIT_ASSIGNED_CONTEXT ( ( #134, #139, #136 ) ) REPRESENTATION_CONTEXT ( 'NONE', 'WORKASPACE' ) );
#33 = APPLICATION_CONTEXT ( 'automotive_design' ) ;
#34 = VECTOR ( 'NONE', #88, 1000.000000000000000 ) ;
#35 = EDGE_CURVE ( 'NONE', #43, #117, #84, .T. ) ;
#36 = VECTOR ( 'NONE', #104, 1000.000000000000000 ) ;
#37 = CARTESIAN_POINT ( 'NONE',  ( -50.00000000000000000, 0.0000000000000000000, 4.253961525412961464 ) ) ;
#38 = CARTESIAN_POINT ( 'NONE',  ( -50.00000000000000000, 0.0000000000000000000, 4.253961525412961464 ) ) ;
#39 =( NAMED_UNIT ( * ) SI_UNIT ( $, .STERADIAN. ) SOLID_ANGLE_UNIT ( ) );
#40 = AXIS2_PLACEMENT_3D ( 'NONE', #13, #105, #56 ) ;
#41 = SURFACE_STYLE_USAGE ( .BOTH. , #61 ) ;
#42 = ORIENTED_EDGE ( 'NONE', *, *, #128, .F. ) ;
#43 = VERTEX_POINT ( 'NONE', #27 ) ;
#44 =( BOUNDED_CURVE ( )  B_SPLINE_CURVE ( 3, ( #38, #28, #102, #30 ),
 .UNSPECIFIED., .F., .F. ) 
 B_SPLINE_CURVE_WITH_KNOTS ( ( 4, 4 ),
 ( 1.570796326794896558, 4.712388980384689674 ),
 .UNSPECIFIED. ) 
 CURVE ( )  GEOMETRIC_REPRESENTATION_ITEM ( )  RATIONAL_B_SPLINE_CURVE ( ( 1.000000000000000000, 0.3333333333333333703, 0.3333333333333333703, 1.000000000000000000 ) ) 
 REPRESENTATION_ITEM ( '' )  );
#45 = PLANE ( 'NONE',  #94 ) ;
#46 = AXIS2_PLACEMENT_3D ( 'NONE', #18, #81, #109 ) ;
#47 = CARTESIAN_POINT ( 'NONE',  ( 50.00000000000000000, 6.123233995736766085E-15, 4.253961525412961464 ) ) ;
#48 = PRESENTATION_LAYER_ASSIGNMENT (  '', '', ( #20 ) ) ;
#49 = FACE_OUTER_BOUND ( 'NONE', #137, .T. ) ;
#50 = DIRECTION ( 'NONE',  ( 0.0000000000000000000, 0.0000000000000000000, 1.000000000000000000 ) ) ;
#51 = ADVANCED_FACE ( 'NONE', ( #5 ), #10, .T. ) ;
#52 = AXIS2_PLACEMENT_3D ( 'NONE', #17, #14, #29 ) ;
#53 = MECHANICAL_DESIGN_GEOMETRIC_PRESENTATION_REPRESENTATION (  '', ( #20 ), #86 ) ;
#54 = FACE_OUTER_BOUND ( 'NONE', #2, .T. ) ;
#55 = DIRECTION ( 'NONE',  ( 0.0000000000000000000, 0.03489949670249403724, -0.9993908270190959842 ) ) ;
#56 = DIRECTION ( 'NONE',  ( 1.000000000000000000, 0.0000000000000000000, 0.0000000000000000000 ) ) ;
#57 = COLOUR_RGB ( '',0.9411764705882352811, 0.9607843137254902244, 0.9686274509803921573 ) ;
#58 = APPLICATION_CONTEXT ( 'automotive_design' ) ;
#59 = FILL_AREA_STYLE ('',( #6 ) ) ;
#60 = MECHANICAL_DESIGN_GEOMETRIC_PRESENTATION_REPRESENTATION (  '', ( #87 ), #32 ) ;
#61 = SURFACE_SIDE_STYLE ('',( #129 ) ) ;
#62 =( NAMED_UNIT ( * ) PLANE_ANGLE_UNIT ( ) SI_UNIT ( $, .RADIAN. ) );
#63 = ORIENTED_EDGE ( 'NONE', *, *, #96, .F. ) ;
#64 = UNCERTAINTY_MEASURE_WITH_UNIT (LENGTH_MEASURE( 1.000000000000000082E-05 ), #79, 'distance_accuracy_value', 'NONE');
#65 = AXIS2_PLACEMENT_3D ( 'NONE', #7, #50, #21 ) ;
#66 = APPLICATION_PROTOCOL_DEFINITION ( 'draft international standard', 'automotive_design', 1998, #58 ) ;
#67 = CARTESIAN_POINT ( 'NONE',  ( 50.00000000000000000, 6.123233995736766085E-15, 0.0000000000000000000 ) ) ;
#68 = CLOSED_SHELL ( 'NONE', ( #51, #127, #93, #80 ) ) ;
#69 = PRODUCT_DEFINITION ( 'Î´Öª', '', #125, #4 ) ;
#70 = ORIENTED_EDGE ( 'NONE', *, *, #135, .F. ) ;
#71 =( GEOMETRIC_REPRESENTATION_CONTEXT ( 3 ) GLOBAL_UNCERTAINTY_ASSIGNED_CONTEXT ( ( #64 ) ) GLOBAL_UNIT_ASSIGNED_CONTEXT ( ( #79, #122, #39 ) ) REPRESENTATION_CONTEXT ( 'NONE', 'WORKASPACE' ) );
#72 = ORIENTED_EDGE ( 'NONE', *, *, #35, .F. ) ;
#73 = CARTESIAN_POINT ( 'NONE',  ( -50.00000000000000000, -100.0000000000000000, 0.7618845762388835041 ) ) ;
#74 = ORIENTED_EDGE ( 'NONE', *, *, #128, .T. ) ;
#75 = DIRECTION ( 'NONE',  ( -1.000000000000000000, 0.0000000000000000000, 0.0000000000000000000 ) ) ;
#76 = SURFACE_STYLE_FILL_AREA ( #59 ) ;
#77 = ORIENTED_EDGE ( 'NONE', *, *, #96, .T. ) ;
#78 = AXIS2_PLACEMENT_3D ( 'NONE', #132, #118, #75 ) ;
#79 =( LENGTH_UNIT ( ) NAMED_UNIT ( * ) SI_UNIT ( .MILLI., .METRE. ) );
#80 = ADVANCED_FACE ( 'NONE', ( #54 ), #45, .F. ) ;
#81 = DIRECTION ( 'NONE',  ( -0.0000000000000000000, -0.0000000000000000000, -1.000000000000000000 ) ) ;
#82 = ORIENTED_EDGE ( 'NONE', *, *, #35, .T. ) ;
#83 = PRODUCT_CONTEXT ( 'NONE', #58, 'mechanical' ) ;
#84 = CIRCLE ( 'NONE', #40, 50.00000000000000000 ) ;
#85 = EDGE_LOOP ( 'NONE', ( #77, #140, #26, #42 ) ) ;
#86 =( GEOMETRIC_REPRESENTATION_CONTEXT ( 3 ) GLOBAL_UNCERTAINTY_ASSIGNED_CONTEXT ( ( #130 ) ) GLOBAL_UNIT_ASSIGNED_CONTEXT ( ( #8, #62, #124 ) ) REPRESENTATION_CONTEXT ( 'NONE', 'WORKASPACE' ) );
#87 = STYLED_ITEM ( 'NONE', ( #114 ), #138 ) ;
#88 = DIRECTION ( 'NONE',  ( -0.0000000000000000000, -0.0000000000000000000, -1.000000000000000000 ) ) ;
#89 = DIRECTION ( 'NONE',  ( 1.000000000000000000, 0.0000000000000000000, -0.0000000000000000000 ) ) ;
#90 = FILL_AREA_STYLE_COLOUR ( '', #101 ) ;
#91 = CARTESIAN_POINT ( 'NONE',  ( 0.0000000000000000000, 0.0000000000000000000, 0.0000000000000000000 ) ) ;
#92 =( BOUNDED_CURVE ( )  B_SPLINE_CURVE ( 3, ( #3, #119, #73, #37 ),
 .UNSPECIFIED., .F., .T. ) 
 B_SPLINE_CURVE_WITH_KNOTS ( ( 4, 4 ),
 ( 4.712388980384689674, 7.853981633974482790 ),
 .UNSPECIFIED. ) 
 CURVE ( )  GEOMETRIC_REPRESENTATION_ITEM ( )  RATIONAL_B_SPLINE_CURVE ( ( 1.000000000000000000, 0.3333333333333333703, 0.3333333333333333703, 1.000000000000000000 ) ) 
 REPRESENTATION_ITEM ( '' )  );
#93 = ADVANCED_FACE ( 'NONE', ( #113 ), #120, .F. ) ;
#94 = AXIS2_PLACEMENT_3D ( 'NONE', #1, #55, #116 ) ;
#95 = ORIENTED_EDGE ( 'NONE', *, *, #15, .F. ) ;
#96 = EDGE_CURVE ( 'NONE', #115, #110, #44, .T. ) ;
#97 = LINE ( 'NONE', #121, #34 ) ;
#98 = CARTESIAN_POINT ( 'NONE',  ( 50.00000000000000000, 6.123233995736766085E-15, 6.000000000000000000 ) ) ;
#99 = PRODUCT_RELATED_PRODUCT_CATEGORY ( 'part', '', ( #23 ) ) ;
#100 = PRESENTATION_STYLE_ASSIGNMENT (( #126 ) ) ;
#101 = COLOUR_RGB ( '',0.9411764705882352811, 0.9607843137254902244, 0.9686274509803921573 ) ;
#102 = CARTESIAN_POINT ( 'NONE',  ( 49.99999999999997868, 100.0000000000000000, 7.746038474587039424 ) ) ;
#103 = ORIENTED_EDGE ( 'NONE', *, *, #9, .F. ) ;
#104 = DIRECTION ( 'NONE',  ( -0.0000000000000000000, -0.0000000000000000000, -1.000000000000000000 ) ) ;
#105 = DIRECTION ( 'NONE',  ( 0.0000000000000000000, 0.0000000000000000000, 1.000000000000000000 ) ) ;
#106 = CARTESIAN_POINT ( 'NONE',  ( -50.00000000000000000, 0.0000000000000000000, 4.253961525412961464 ) ) ;
#107 = PRESENTATION_LAYER_ASSIGNMENT (  '', '', ( #87 ) ) ;
#108 = DIRECTION ( 'NONE',  ( 0.0000000000000000000, 0.0000000000000000000, 1.000000000000000000 ) ) ;
#109 = DIRECTION ( 'NONE',  ( -1.000000000000000000, 0.0000000000000000000, 0.0000000000000000000 ) ) ;
#110 = VERTEX_POINT ( 'NONE', #47 ) ;
#111 = APPLICATION_PROTOCOL_DEFINITION ( 'draft international standard', 'automotive_design', 1998, #33 ) ;
#112 = AXIS2_PLACEMENT_3D ( 'NONE', #91, #108, #89 ) ;
#113 = FACE_OUTER_BOUND ( 'NONE', #31, .T. ) ;
#114 = PRESENTATION_STYLE_ASSIGNMENT (( #41 ) ) ;
#115 = VERTEX_POINT ( 'NONE', #106 ) ;
#116 = DIRECTION ( 'NONE',  ( 0.0000000000000000000, 0.9993908270190958731, 0.03489949670249403030 ) ) ;
#117 = VERTEX_POINT ( 'NONE', #67 ) ;
#118 = DIRECTION ( 'NONE',  ( -0.0000000000000000000, -0.0000000000000000000, -1.000000000000000000 ) ) ;
#119 = CARTESIAN_POINT ( 'NONE',  ( 50.00000000000002132, -100.0000000000000000, 0.7618845762388835041 ) ) ;
#120 = PLANE ( 'NONE',  #112 ) ;
#121 = CARTESIAN_POINT ( 'NONE',  ( -50.00000000000000000, 0.0000000000000000000, 6.000000000000000000 ) ) ;
#122 =( NAMED_UNIT ( * ) PLANE_ANGLE_UNIT ( ) SI_UNIT ( $, .RADIAN. ) );
#123 = FILL_AREA_STYLE ('',( #90 ) ) ;
#124 =( NAMED_UNIT ( * ) SI_UNIT ( $, .STERADIAN. ) SOLID_ANGLE_UNIT ( ) );
#125 = PRODUCT_DEFINITION_FORMATION_WITH_SPECIFIED_SOURCE ( 'ÈÎºÎ', '', #23, .NOT_KNOWN. ) ;
#126 = SURFACE_STYLE_USAGE ( .BOTH. , #22 ) ;
#127 = ADVANCED_FACE ( 'NONE', ( #49 ), #16, .T. ) ;
#128 = EDGE_CURVE ( 'NONE', #115, #43, #97, .T. ) ;
#129 = SURFACE_STYLE_FILL_AREA ( #123 ) ;
#130 = UNCERTAINTY_MEASURE_WITH_UNIT (LENGTH_MEASURE( 1.000000000000000082E-05 ), #8, 'distance_accuracy_value', 'NONE');
#131 = CIRCLE ( 'NONE', #52, 50.00000000000000000 ) ;
#132 = CARTESIAN_POINT ( 'NONE',  ( 0.0000000000000000000, 0.0000000000000000000, 6.000000000000000000 ) ) ;
#133 = LINE ( 'NONE', #98, #36 ) ;
#134 =( LENGTH_UNIT ( ) NAMED_UNIT ( * ) SI_UNIT ( .MILLI., .METRE. ) );
#135 = EDGE_CURVE ( 'NONE', #117, #43, #131, .T. ) ;
#136 =( NAMED_UNIT ( * ) SI_UNIT ( $, .STERADIAN. ) SOLID_ANGLE_UNIT ( ) );
#137 = EDGE_LOOP ( 'NONE', ( #95, #24, #74, #82 ) ) ;
#138 = MANIFOLD_SOLID_BREP ( 'ÇÐ³ý-À­Éì1', #68 ) ;
#139 =( NAMED_UNIT ( * ) PLANE_ANGLE_UNIT ( ) SI_UNIT ( $, .RADIAN. ) );
#140 = ORIENTED_EDGE ( 'NONE', *, *, #15, .T. ) ;
ENDSEC;
END-ISO-10303-21;
